ISO-10303-21;
HEADER;
/* Generated by software containing ST-Developer
 * from STEP Tools, Inc. (www.steptools.com) 
 */

FILE_DESCRIPTION(
/* description */ (''),
/* implementation_level */ '2;1');

FILE_NAME(
/* name */ 'C:\\Users\\xavier morvan\\Desktop\\interrface camill.step',

/* time_stamp */ '2022-12-13T16:24:57+01:00',
/* author */ ('xavier morvan'),
/* organization */ ('Unknown'),
/* preprocessor_version */ 'ST-DEVELOPER v19',
/* originating_system */ 
'Autodesk Manufacturing Data Exchange Utility2023.0.0.918002',
/* authorisation */ '');

FILE_SCHEMA (('AUTOMOTIVE_DESIGN { 1 0 10303 214 3 1 1 }'));
ENDSEC;

DATA;
#10=MECHANICAL_DESIGN_GEOMETRIC_PRESENTATION_REPRESENTATION('',(),#662);
#11=PRESENTATION_LAYER_ASSIGNMENT('0','General',(#14));
#12=SHAPE_REPRESENTATION_RELATIONSHIP('SRR','None',#668,#13);
#13=ADVANCED_BREP_SHAPE_REPRESENTATION('',(#14),#661);
#14=MANIFOLD_SOLID_BREP('1',#390);
#15=CONICAL_SURFACE('',#420,3.,0.785398163397448);
#16=CONICAL_SURFACE('',#424,3.,0.785398163397448);
#17=CONICAL_SURFACE('',#428,3.,0.785398163397448);
#18=CONICAL_SURFACE('',#432,3.,0.785398163397448);
#19=CYLINDRICAL_SURFACE('',#416,27.5);
#20=CYLINDRICAL_SURFACE('',#417,3.);
#21=CYLINDRICAL_SURFACE('',#421,3.);
#22=CYLINDRICAL_SURFACE('',#425,3.);
#23=CYLINDRICAL_SURFACE('',#429,3.);
#24=CYLINDRICAL_SURFACE('',#433,2.5);
#25=CYLINDRICAL_SURFACE('',#434,2.5);
#26=CYLINDRICAL_SURFACE('',#435,2.5);
#27=CYLINDRICAL_SURFACE('',#436,2.5);
#28=FACE_BOUND('',#96,.T.);
#29=FACE_BOUND('',#97,.T.);
#30=FACE_BOUND('',#98,.T.);
#31=FACE_BOUND('',#99,.T.);
#32=FACE_BOUND('',#100,.T.);
#33=FACE_BOUND('',#101,.T.);
#34=FACE_BOUND('',#102,.T.);
#35=FACE_BOUND('',#103,.T.);
#36=FACE_BOUND('',#104,.T.);
#37=FACE_BOUND('',#106,.T.);
#38=FACE_BOUND('',#107,.T.);
#39=FACE_BOUND('',#108,.T.);
#40=FACE_BOUND('',#109,.T.);
#41=FACE_BOUND('',#110,.T.);
#42=FACE_BOUND('',#111,.T.);
#43=FACE_BOUND('',#112,.T.);
#44=FACE_BOUND('',#113,.T.);
#45=FACE_BOUND('',#114,.T.);
#46=CIRCLE('',#397,2.5);
#47=CIRCLE('',#398,2.5);
#48=CIRCLE('',#399,2.5);
#49=CIRCLE('',#400,2.5);
#50=CIRCLE('',#401,3.);
#51=CIRCLE('',#402,3.);
#52=CIRCLE('',#403,3.);
#53=CIRCLE('',#404,3.);
#54=CIRCLE('',#405,27.5);
#55=CIRCLE('',#407,2.5);
#56=CIRCLE('',#408,2.5);
#57=CIRCLE('',#409,2.5);
#58=CIRCLE('',#410,2.5);
#59=CIRCLE('',#411,3.3);
#60=CIRCLE('',#412,3.3);
#61=CIRCLE('',#413,3.3);
#62=CIRCLE('',#414,3.3);
#63=CIRCLE('',#415,27.5);
#64=CIRCLE('',#418,3.);
#65=CIRCLE('',#419,3.);
#66=CIRCLE('',#422,3.);
#67=CIRCLE('',#423,3.);
#68=CIRCLE('',#426,3.);
#69=CIRCLE('',#427,3.);
#70=CIRCLE('',#430,3.);
#71=CIRCLE('',#431,3.);
#72=FACE_OUTER_BOUND('',#91,.T.);
#73=FACE_OUTER_BOUND('',#92,.T.);
#74=FACE_OUTER_BOUND('',#93,.T.);
#75=FACE_OUTER_BOUND('',#94,.T.);
#76=FACE_OUTER_BOUND('',#95,.T.);
#77=FACE_OUTER_BOUND('',#105,.T.);
#78=FACE_OUTER_BOUND('',#115,.T.);
#79=FACE_OUTER_BOUND('',#116,.T.);
#80=FACE_OUTER_BOUND('',#117,.T.);
#81=FACE_OUTER_BOUND('',#118,.T.);
#82=FACE_OUTER_BOUND('',#119,.T.);
#83=FACE_OUTER_BOUND('',#120,.T.);
#84=FACE_OUTER_BOUND('',#121,.T.);
#85=FACE_OUTER_BOUND('',#122,.T.);
#86=FACE_OUTER_BOUND('',#123,.T.);
#87=FACE_OUTER_BOUND('',#124,.T.);
#88=FACE_OUTER_BOUND('',#125,.T.);
#89=FACE_OUTER_BOUND('',#126,.T.);
#90=FACE_OUTER_BOUND('',#127,.T.);
#91=EDGE_LOOP('',(#263,#264,#265,#266));
#92=EDGE_LOOP('',(#267,#268,#269,#270));
#93=EDGE_LOOP('',(#271,#272,#273,#274));
#94=EDGE_LOOP('',(#275,#276,#277,#278));
#95=EDGE_LOOP('',(#279,#280,#281,#282));
#96=EDGE_LOOP('',(#283));
#97=EDGE_LOOP('',(#284));
#98=EDGE_LOOP('',(#285));
#99=EDGE_LOOP('',(#286));
#100=EDGE_LOOP('',(#287));
#101=EDGE_LOOP('',(#288));
#102=EDGE_LOOP('',(#289));
#103=EDGE_LOOP('',(#290));
#104=EDGE_LOOP('',(#291));
#105=EDGE_LOOP('',(#292,#293,#294,#295));
#106=EDGE_LOOP('',(#296));
#107=EDGE_LOOP('',(#297));
#108=EDGE_LOOP('',(#298));
#109=EDGE_LOOP('',(#299));
#110=EDGE_LOOP('',(#300));
#111=EDGE_LOOP('',(#301));
#112=EDGE_LOOP('',(#302));
#113=EDGE_LOOP('',(#303));
#114=EDGE_LOOP('',(#304));
#115=EDGE_LOOP('',(#305,#306,#307,#308));
#116=EDGE_LOOP('',(#309,#310,#311,#312,#313));
#117=EDGE_LOOP('',(#314,#315,#316,#317,#318));
#118=EDGE_LOOP('',(#319,#320,#321,#322,#323));
#119=EDGE_LOOP('',(#324,#325,#326,#327,#328));
#120=EDGE_LOOP('',(#329,#330,#331,#332,#333));
#121=EDGE_LOOP('',(#334,#335,#336,#337,#338));
#122=EDGE_LOOP('',(#339,#340,#341,#342,#343));
#123=EDGE_LOOP('',(#344,#345,#346,#347,#348));
#124=EDGE_LOOP('',(#349,#350,#351,#352));
#125=EDGE_LOOP('',(#353,#354,#355,#356));
#126=EDGE_LOOP('',(#357,#358,#359,#360));
#127=EDGE_LOOP('',(#361,#362,#363,#364));
#128=LINE('',#558,#153);
#129=LINE('',#560,#154);
#130=LINE('',#562,#155);
#131=LINE('',#563,#156);
#132=LINE('',#566,#157);
#133=LINE('',#568,#158);
#134=LINE('',#569,#159);
#135=LINE('',#572,#160);
#136=LINE('',#574,#161);
#137=LINE('',#575,#162);
#138=LINE('',#577,#163);
#139=LINE('',#578,#164);
#140=LINE('',#618,#165);
#141=LINE('',#624,#166);
#142=LINE('',#626,#167);
#143=LINE('',#632,#168);
#144=LINE('',#634,#169);
#145=LINE('',#640,#170);
#146=LINE('',#642,#171);
#147=LINE('',#648,#172);
#148=LINE('',#650,#173);
#149=LINE('',#652,#174);
#150=LINE('',#654,#175);
#151=LINE('',#656,#176);
#152=LINE('',#658,#177);
#153=VECTOR('',#441,150.);
#154=VECTOR('',#442,10.);
#155=VECTOR('',#443,150.);
#156=VECTOR('',#444,10.);
#157=VECTOR('',#447,150.);
#158=VECTOR('',#448,150.);
#159=VECTOR('',#449,10.);
#160=VECTOR('',#452,150.);
#161=VECTOR('',#453,150.);
#162=VECTOR('',#454,10.);
#163=VECTOR('',#457,150.);
#164=VECTOR('',#458,150.);
#165=VECTOR('',#501,27.5);
#166=VECTOR('',#508,3.);
#167=VECTOR('',#511,3.);
#168=VECTOR('',#518,3.);
#169=VECTOR('',#521,3.);
#170=VECTOR('',#528,3.);
#171=VECTOR('',#531,3.);
#172=VECTOR('',#538,3.);
#173=VECTOR('',#541,3.);
#174=VECTOR('',#544,2.5);
#175=VECTOR('',#547,2.5);
#176=VECTOR('',#550,2.5);
#177=VECTOR('',#553,2.5);
#178=VERTEX_POINT('',#556);
#179=VERTEX_POINT('',#557);
#180=VERTEX_POINT('',#559);
#181=VERTEX_POINT('',#561);
#182=VERTEX_POINT('',#565);
#183=VERTEX_POINT('',#567);
#184=VERTEX_POINT('',#571);
#185=VERTEX_POINT('',#573);
#186=VERTEX_POINT('',#580);
#187=VERTEX_POINT('',#582);
#188=VERTEX_POINT('',#584);
#189=VERTEX_POINT('',#586);
#190=VERTEX_POINT('',#588);
#191=VERTEX_POINT('',#590);
#192=VERTEX_POINT('',#592);
#193=VERTEX_POINT('',#594);
#194=VERTEX_POINT('',#596);
#195=VERTEX_POINT('',#599);
#196=VERTEX_POINT('',#601);
#197=VERTEX_POINT('',#603);
#198=VERTEX_POINT('',#605);
#199=VERTEX_POINT('',#607);
#200=VERTEX_POINT('',#609);
#201=VERTEX_POINT('',#611);
#202=VERTEX_POINT('',#613);
#203=VERTEX_POINT('',#615);
#204=VERTEX_POINT('',#620);
#205=VERTEX_POINT('',#621);
#206=VERTEX_POINT('',#628);
#207=VERTEX_POINT('',#629);
#208=VERTEX_POINT('',#636);
#209=VERTEX_POINT('',#637);
#210=VERTEX_POINT('',#644);
#211=VERTEX_POINT('',#645);
#212=EDGE_CURVE('',#178,#179,#128,.T.);
#213=EDGE_CURVE('',#180,#178,#129,.T.);
#214=EDGE_CURVE('',#180,#181,#130,.T.);
#215=EDGE_CURVE('',#181,#179,#131,.T.);
#216=EDGE_CURVE('',#179,#182,#132,.T.);
#217=EDGE_CURVE('',#181,#183,#133,.T.);
#218=EDGE_CURVE('',#183,#182,#134,.T.);
#219=EDGE_CURVE('',#182,#184,#135,.T.);
#220=EDGE_CURVE('',#183,#185,#136,.T.);
#221=EDGE_CURVE('',#185,#184,#137,.T.);
#222=EDGE_CURVE('',#184,#178,#138,.T.);
#223=EDGE_CURVE('',#185,#180,#139,.T.);
#224=EDGE_CURVE('',#186,#186,#46,.T.);
#225=EDGE_CURVE('',#187,#187,#47,.T.);
#226=EDGE_CURVE('',#188,#188,#48,.T.);
#227=EDGE_CURVE('',#189,#189,#49,.T.);
#228=EDGE_CURVE('',#190,#190,#50,.T.);
#229=EDGE_CURVE('',#191,#191,#51,.T.);
#230=EDGE_CURVE('',#192,#192,#52,.T.);
#231=EDGE_CURVE('',#193,#193,#53,.T.);
#232=EDGE_CURVE('',#194,#194,#54,.T.);
#233=EDGE_CURVE('',#195,#195,#55,.T.);
#234=EDGE_CURVE('',#196,#196,#56,.T.);
#235=EDGE_CURVE('',#197,#197,#57,.T.);
#236=EDGE_CURVE('',#198,#198,#58,.T.);
#237=EDGE_CURVE('',#199,#199,#59,.T.);
#238=EDGE_CURVE('',#200,#200,#60,.T.);
#239=EDGE_CURVE('',#201,#201,#61,.T.);
#240=EDGE_CURVE('',#202,#202,#62,.T.);
#241=EDGE_CURVE('',#203,#203,#63,.T.);
#242=EDGE_CURVE('',#194,#203,#140,.T.);
#243=EDGE_CURVE('',#204,#205,#64,.T.);
#244=EDGE_CURVE('',#205,#204,#65,.T.);
#245=EDGE_CURVE('',#204,#193,#141,.T.);
#246=EDGE_CURVE('',#205,#202,#142,.T.);
#247=EDGE_CURVE('',#206,#207,#66,.T.);
#248=EDGE_CURVE('',#207,#206,#67,.T.);
#249=EDGE_CURVE('',#206,#192,#143,.T.);
#250=EDGE_CURVE('',#207,#201,#144,.T.);
#251=EDGE_CURVE('',#208,#209,#68,.T.);
#252=EDGE_CURVE('',#209,#208,#69,.T.);
#253=EDGE_CURVE('',#208,#191,#145,.T.);
#254=EDGE_CURVE('',#209,#200,#146,.T.);
#255=EDGE_CURVE('',#210,#211,#70,.T.);
#256=EDGE_CURVE('',#211,#210,#71,.T.);
#257=EDGE_CURVE('',#210,#190,#147,.T.);
#258=EDGE_CURVE('',#211,#199,#148,.T.);
#259=EDGE_CURVE('',#198,#189,#149,.T.);
#260=EDGE_CURVE('',#197,#188,#150,.T.);
#261=EDGE_CURVE('',#196,#187,#151,.T.);
#262=EDGE_CURVE('',#195,#186,#152,.T.);
#263=ORIENTED_EDGE('',*,*,#212,.F.);
#264=ORIENTED_EDGE('',*,*,#213,.F.);
#265=ORIENTED_EDGE('',*,*,#214,.T.);
#266=ORIENTED_EDGE('',*,*,#215,.T.);
#267=ORIENTED_EDGE('',*,*,#216,.F.);
#268=ORIENTED_EDGE('',*,*,#215,.F.);
#269=ORIENTED_EDGE('',*,*,#217,.T.);
#270=ORIENTED_EDGE('',*,*,#218,.T.);
#271=ORIENTED_EDGE('',*,*,#219,.F.);
#272=ORIENTED_EDGE('',*,*,#218,.F.);
#273=ORIENTED_EDGE('',*,*,#220,.T.);
#274=ORIENTED_EDGE('',*,*,#221,.T.);
#275=ORIENTED_EDGE('',*,*,#222,.F.);
#276=ORIENTED_EDGE('',*,*,#221,.F.);
#277=ORIENTED_EDGE('',*,*,#223,.T.);
#278=ORIENTED_EDGE('',*,*,#213,.T.);
#279=ORIENTED_EDGE('',*,*,#214,.F.);
#280=ORIENTED_EDGE('',*,*,#223,.F.);
#281=ORIENTED_EDGE('',*,*,#220,.F.);
#282=ORIENTED_EDGE('',*,*,#217,.F.);
#283=ORIENTED_EDGE('',*,*,#224,.T.);
#284=ORIENTED_EDGE('',*,*,#225,.T.);
#285=ORIENTED_EDGE('',*,*,#226,.T.);
#286=ORIENTED_EDGE('',*,*,#227,.T.);
#287=ORIENTED_EDGE('',*,*,#228,.T.);
#288=ORIENTED_EDGE('',*,*,#229,.T.);
#289=ORIENTED_EDGE('',*,*,#230,.T.);
#290=ORIENTED_EDGE('',*,*,#231,.T.);
#291=ORIENTED_EDGE('',*,*,#232,.F.);
#292=ORIENTED_EDGE('',*,*,#212,.T.);
#293=ORIENTED_EDGE('',*,*,#216,.T.);
#294=ORIENTED_EDGE('',*,*,#219,.T.);
#295=ORIENTED_EDGE('',*,*,#222,.T.);
#296=ORIENTED_EDGE('',*,*,#233,.F.);
#297=ORIENTED_EDGE('',*,*,#234,.F.);
#298=ORIENTED_EDGE('',*,*,#235,.F.);
#299=ORIENTED_EDGE('',*,*,#236,.F.);
#300=ORIENTED_EDGE('',*,*,#237,.F.);
#301=ORIENTED_EDGE('',*,*,#238,.F.);
#302=ORIENTED_EDGE('',*,*,#239,.F.);
#303=ORIENTED_EDGE('',*,*,#240,.F.);
#304=ORIENTED_EDGE('',*,*,#241,.T.);
#305=ORIENTED_EDGE('',*,*,#232,.T.);
#306=ORIENTED_EDGE('',*,*,#242,.T.);
#307=ORIENTED_EDGE('',*,*,#241,.F.);
#308=ORIENTED_EDGE('',*,*,#242,.F.);
#309=ORIENTED_EDGE('',*,*,#243,.T.);
#310=ORIENTED_EDGE('',*,*,#244,.T.);
#311=ORIENTED_EDGE('',*,*,#245,.T.);
#312=ORIENTED_EDGE('',*,*,#231,.F.);
#313=ORIENTED_EDGE('',*,*,#245,.F.);
#314=ORIENTED_EDGE('',*,*,#243,.F.);
#315=ORIENTED_EDGE('',*,*,#244,.F.);
#316=ORIENTED_EDGE('',*,*,#246,.T.);
#317=ORIENTED_EDGE('',*,*,#240,.T.);
#318=ORIENTED_EDGE('',*,*,#246,.F.);
#319=ORIENTED_EDGE('',*,*,#247,.T.);
#320=ORIENTED_EDGE('',*,*,#248,.T.);
#321=ORIENTED_EDGE('',*,*,#249,.T.);
#322=ORIENTED_EDGE('',*,*,#230,.F.);
#323=ORIENTED_EDGE('',*,*,#249,.F.);
#324=ORIENTED_EDGE('',*,*,#247,.F.);
#325=ORIENTED_EDGE('',*,*,#248,.F.);
#326=ORIENTED_EDGE('',*,*,#250,.T.);
#327=ORIENTED_EDGE('',*,*,#239,.T.);
#328=ORIENTED_EDGE('',*,*,#250,.F.);
#329=ORIENTED_EDGE('',*,*,#251,.T.);
#330=ORIENTED_EDGE('',*,*,#252,.T.);
#331=ORIENTED_EDGE('',*,*,#253,.T.);
#332=ORIENTED_EDGE('',*,*,#229,.F.);
#333=ORIENTED_EDGE('',*,*,#253,.F.);
#334=ORIENTED_EDGE('',*,*,#251,.F.);
#335=ORIENTED_EDGE('',*,*,#252,.F.);
#336=ORIENTED_EDGE('',*,*,#254,.T.);
#337=ORIENTED_EDGE('',*,*,#238,.T.);
#338=ORIENTED_EDGE('',*,*,#254,.F.);
#339=ORIENTED_EDGE('',*,*,#255,.T.);
#340=ORIENTED_EDGE('',*,*,#256,.T.);
#341=ORIENTED_EDGE('',*,*,#257,.T.);
#342=ORIENTED_EDGE('',*,*,#228,.F.);
#343=ORIENTED_EDGE('',*,*,#257,.F.);
#344=ORIENTED_EDGE('',*,*,#255,.F.);
#345=ORIENTED_EDGE('',*,*,#256,.F.);
#346=ORIENTED_EDGE('',*,*,#258,.T.);
#347=ORIENTED_EDGE('',*,*,#237,.T.);
#348=ORIENTED_EDGE('',*,*,#258,.F.);
#349=ORIENTED_EDGE('',*,*,#236,.T.);
#350=ORIENTED_EDGE('',*,*,#259,.T.);
#351=ORIENTED_EDGE('',*,*,#227,.F.);
#352=ORIENTED_EDGE('',*,*,#259,.F.);
#353=ORIENTED_EDGE('',*,*,#235,.T.);
#354=ORIENTED_EDGE('',*,*,#260,.T.);
#355=ORIENTED_EDGE('',*,*,#226,.F.);
#356=ORIENTED_EDGE('',*,*,#260,.F.);
#357=ORIENTED_EDGE('',*,*,#234,.T.);
#358=ORIENTED_EDGE('',*,*,#261,.T.);
#359=ORIENTED_EDGE('',*,*,#225,.F.);
#360=ORIENTED_EDGE('',*,*,#261,.F.);
#361=ORIENTED_EDGE('',*,*,#233,.T.);
#362=ORIENTED_EDGE('',*,*,#262,.T.);
#363=ORIENTED_EDGE('',*,*,#224,.F.);
#364=ORIENTED_EDGE('',*,*,#262,.F.);
#365=PLANE('',#392);
#366=PLANE('',#393);
#367=PLANE('',#394);
#368=PLANE('',#395);
#369=PLANE('',#396);
#370=PLANE('',#406);
#371=ADVANCED_FACE('',(#72),#365,.T.);
#372=ADVANCED_FACE('',(#73),#366,.T.);
#373=ADVANCED_FACE('',(#74),#367,.T.);
#374=ADVANCED_FACE('',(#75),#368,.T.);
#375=ADVANCED_FACE('',(#76,#28,#29,#30,#31,#32,#33,#34,#35,#36),#369,.F.);
#376=ADVANCED_FACE('',(#77,#37,#38,#39,#40,#41,#42,#43,#44,#45),#370,.T.);
#377=ADVANCED_FACE('',(#78),#19,.F.);
#378=ADVANCED_FACE('',(#79),#20,.F.);
#379=ADVANCED_FACE('',(#80),#15,.F.);
#380=ADVANCED_FACE('',(#81),#21,.F.);
#381=ADVANCED_FACE('',(#82),#16,.F.);
#382=ADVANCED_FACE('',(#83),#22,.F.);
#383=ADVANCED_FACE('',(#84),#17,.F.);
#384=ADVANCED_FACE('',(#85),#23,.F.);
#385=ADVANCED_FACE('',(#86),#18,.F.);
#386=ADVANCED_FACE('',(#87),#24,.F.);
#387=ADVANCED_FACE('',(#88),#25,.F.);
#388=ADVANCED_FACE('',(#89),#26,.F.);
#389=ADVANCED_FACE('',(#90),#27,.F.);
#390=CLOSED_SHELL('',(#371,#372,#373,#374,#375,#376,#377,#378,#379,#380,
#381,#382,#383,#384,#385,#386,#387,#388,#389));
#391=AXIS2_PLACEMENT_3D('placement',#554,#437,#438);
#392=AXIS2_PLACEMENT_3D('',#555,#439,#440);
#393=AXIS2_PLACEMENT_3D('',#564,#445,#446);
#394=AXIS2_PLACEMENT_3D('',#570,#450,#451);
#395=AXIS2_PLACEMENT_3D('',#576,#455,#456);
#396=AXIS2_PLACEMENT_3D('',#579,#459,#460);
#397=AXIS2_PLACEMENT_3D('',#581,#461,#462);
#398=AXIS2_PLACEMENT_3D('',#583,#463,#464);
#399=AXIS2_PLACEMENT_3D('',#585,#465,#466);
#400=AXIS2_PLACEMENT_3D('',#587,#467,#468);
#401=AXIS2_PLACEMENT_3D('',#589,#469,#470);
#402=AXIS2_PLACEMENT_3D('',#591,#471,#472);
#403=AXIS2_PLACEMENT_3D('',#593,#473,#474);
#404=AXIS2_PLACEMENT_3D('',#595,#475,#476);
#405=AXIS2_PLACEMENT_3D('',#597,#477,#478);
#406=AXIS2_PLACEMENT_3D('',#598,#479,#480);
#407=AXIS2_PLACEMENT_3D('',#600,#481,#482);
#408=AXIS2_PLACEMENT_3D('',#602,#483,#484);
#409=AXIS2_PLACEMENT_3D('',#604,#485,#486);
#410=AXIS2_PLACEMENT_3D('',#606,#487,#488);
#411=AXIS2_PLACEMENT_3D('',#608,#489,#490);
#412=AXIS2_PLACEMENT_3D('',#610,#491,#492);
#413=AXIS2_PLACEMENT_3D('',#612,#493,#494);
#414=AXIS2_PLACEMENT_3D('',#614,#495,#496);
#415=AXIS2_PLACEMENT_3D('',#616,#497,#498);
#416=AXIS2_PLACEMENT_3D('',#617,#499,#500);
#417=AXIS2_PLACEMENT_3D('',#619,#502,#503);
#418=AXIS2_PLACEMENT_3D('',#622,#504,#505);
#419=AXIS2_PLACEMENT_3D('',#623,#506,#507);
#420=AXIS2_PLACEMENT_3D('',#625,#509,#510);
#421=AXIS2_PLACEMENT_3D('',#627,#512,#513);
#422=AXIS2_PLACEMENT_3D('',#630,#514,#515);
#423=AXIS2_PLACEMENT_3D('',#631,#516,#517);
#424=AXIS2_PLACEMENT_3D('',#633,#519,#520);
#425=AXIS2_PLACEMENT_3D('',#635,#522,#523);
#426=AXIS2_PLACEMENT_3D('',#638,#524,#525);
#427=AXIS2_PLACEMENT_3D('',#639,#526,#527);
#428=AXIS2_PLACEMENT_3D('',#641,#529,#530);
#429=AXIS2_PLACEMENT_3D('',#643,#532,#533);
#430=AXIS2_PLACEMENT_3D('',#646,#534,#535);
#431=AXIS2_PLACEMENT_3D('',#647,#536,#537);
#432=AXIS2_PLACEMENT_3D('',#649,#539,#540);
#433=AXIS2_PLACEMENT_3D('',#651,#542,#543);
#434=AXIS2_PLACEMENT_3D('',#653,#545,#546);
#435=AXIS2_PLACEMENT_3D('',#655,#548,#549);
#436=AXIS2_PLACEMENT_3D('',#657,#551,#552);
#437=DIRECTION('axis',(0.,0.,1.));
#438=DIRECTION('refdir',(1.,0.,0.));
#439=DIRECTION('center_axis',(1.,0.,0.));
#440=DIRECTION('ref_axis',(0.,0.,-1.));
#441=DIRECTION('',(0.,-1.,0.));
#442=DIRECTION('',(0.,0.,-1.));
#443=DIRECTION('',(0.,-1.,0.));
#444=DIRECTION('',(0.,0.,-1.));
#445=DIRECTION('center_axis',(0.,-1.,0.));
#446=DIRECTION('ref_axis',(0.,0.,-1.));
#447=DIRECTION('',(-1.,0.,0.));
#448=DIRECTION('',(-1.,0.,0.));
#449=DIRECTION('',(0.,0.,-1.));
#450=DIRECTION('center_axis',(-1.,0.,0.));
#451=DIRECTION('ref_axis',(0.,0.,1.));
#452=DIRECTION('',(0.,1.,0.));
#453=DIRECTION('',(0.,1.,0.));
#454=DIRECTION('',(0.,0.,-1.));
#455=DIRECTION('center_axis',(0.,1.,0.));
#456=DIRECTION('ref_axis',(0.,0.,1.));
#457=DIRECTION('',(1.,0.,0.));
#458=DIRECTION('',(1.,0.,0.));
#459=DIRECTION('center_axis',(0.,0.,-1.));
#460=DIRECTION('ref_axis',(-1.,0.,0.));
#461=DIRECTION('center_axis',(0.,0.,-1.));
#462=DIRECTION('ref_axis',(-1.,0.,0.));
#463=DIRECTION('center_axis',(0.,0.,-1.));
#464=DIRECTION('ref_axis',(-1.,0.,0.));
#465=DIRECTION('center_axis',(0.,0.,-1.));
#466=DIRECTION('ref_axis',(-1.,0.,0.));
#467=DIRECTION('center_axis',(0.,0.,-1.));
#468=DIRECTION('ref_axis',(-1.,0.,0.));
#469=DIRECTION('center_axis',(0.,0.,-1.));
#470=DIRECTION('ref_axis',(-1.,0.,0.));
#471=DIRECTION('center_axis',(0.,0.,-1.));
#472=DIRECTION('ref_axis',(-1.,0.,0.));
#473=DIRECTION('center_axis',(0.,0.,-1.));
#474=DIRECTION('ref_axis',(-1.,0.,0.));
#475=DIRECTION('center_axis',(0.,0.,-1.));
#476=DIRECTION('ref_axis',(-1.,0.,0.));
#477=DIRECTION('center_axis',(0.,0.,1.));
#478=DIRECTION('ref_axis',(1.,0.,0.));
#479=DIRECTION('center_axis',(0.,0.,-1.));
#480=DIRECTION('ref_axis',(-1.,0.,0.));
#481=DIRECTION('center_axis',(0.,0.,-1.));
#482=DIRECTION('ref_axis',(-1.,0.,0.));
#483=DIRECTION('center_axis',(0.,0.,-1.));
#484=DIRECTION('ref_axis',(-1.,0.,0.));
#485=DIRECTION('center_axis',(0.,0.,-1.));
#486=DIRECTION('ref_axis',(-1.,0.,0.));
#487=DIRECTION('center_axis',(0.,0.,-1.));
#488=DIRECTION('ref_axis',(-1.,0.,0.));
#489=DIRECTION('center_axis',(0.,0.,-1.));
#490=DIRECTION('ref_axis',(1.,0.,0.));
#491=DIRECTION('center_axis',(0.,0.,-1.));
#492=DIRECTION('ref_axis',(-6.12323399573677E-17,-1.,0.));
#493=DIRECTION('center_axis',(0.,0.,-1.));
#494=DIRECTION('ref_axis',(-1.,1.22464679914735E-16,0.));
#495=DIRECTION('center_axis',(0.,0.,-1.));
#496=DIRECTION('ref_axis',(1.83697019872103E-16,1.,0.));
#497=DIRECTION('center_axis',(0.,0.,1.));
#498=DIRECTION('ref_axis',(1.,0.,0.));
#499=DIRECTION('center_axis',(0.,0.,-1.));
#500=DIRECTION('ref_axis',(-1.,0.,0.));
#501=DIRECTION('',(0.,0.,-1.));
#502=DIRECTION('center_axis',(0.,0.,1.));
#503=DIRECTION('ref_axis',(1.83697019872103E-16,1.,0.));
#504=DIRECTION('center_axis',(0.,0.,-1.));
#505=DIRECTION('ref_axis',(-1.83697019872103E-16,-1.,0.));
#506=DIRECTION('center_axis',(0.,0.,-1.));
#507=DIRECTION('ref_axis',(-1.83697019872103E-16,-1.,0.));
#508=DIRECTION('',(0.,0.,1.));
#509=DIRECTION('center_axis',(0.,0.,-1.));
#510=DIRECTION('ref_axis',(-1.83697019872103E-16,-1.,0.));
#511=DIRECTION('',(2.16489014058873E-16,0.707106781186548,-0.707106781186548));
#512=DIRECTION('center_axis',(0.,0.,1.));
#513=DIRECTION('ref_axis',(-1.,1.22464679914735E-16,0.));
#514=DIRECTION('center_axis',(0.,0.,-1.));
#515=DIRECTION('ref_axis',(1.,-1.22464679914735E-16,0.));
#516=DIRECTION('center_axis',(0.,0.,-1.));
#517=DIRECTION('ref_axis',(1.,-1.22464679914735E-16,0.));
#518=DIRECTION('',(0.,0.,1.));
#519=DIRECTION('center_axis',(0.,0.,-1.));
#520=DIRECTION('ref_axis',(1.,-1.22464679914735E-16,0.));
#521=DIRECTION('',(-0.707106781186548,1.73191211247099E-16,-0.707106781186548));
#522=DIRECTION('center_axis',(0.,0.,1.));
#523=DIRECTION('ref_axis',(-6.12323399573677E-17,-1.,0.));
#524=DIRECTION('center_axis',(0.,0.,-1.));
#525=DIRECTION('ref_axis',(6.12323399573677E-17,1.,0.));
#526=DIRECTION('center_axis',(0.,0.,-1.));
#527=DIRECTION('ref_axis',(6.12323399573677E-17,1.,0.));
#528=DIRECTION('',(0.,0.,1.));
#529=DIRECTION('center_axis',(0.,0.,-1.));
#530=DIRECTION('ref_axis',(6.12323399573677E-17,1.,0.));
#531=DIRECTION('',(-1.29893408435324E-16,-0.707106781186548,-0.707106781186548));
#532=DIRECTION('center_axis',(0.,0.,1.));
#533=DIRECTION('ref_axis',(1.,0.,0.));
#534=DIRECTION('center_axis',(0.,0.,-1.));
#535=DIRECTION('ref_axis',(-1.,0.,0.));
#536=DIRECTION('center_axis',(0.,0.,-1.));
#537=DIRECTION('ref_axis',(-1.,0.,0.));
#538=DIRECTION('',(0.,0.,1.));
#539=DIRECTION('center_axis',(0.,0.,-1.));
#540=DIRECTION('ref_axis',(-1.,0.,0.));
#541=DIRECTION('',(0.707106781186548,-8.65956056235494E-17,-0.707106781186548));
#542=DIRECTION('center_axis',(0.,0.,1.));
#543=DIRECTION('ref_axis',(1.,0.,0.));
#544=DIRECTION('',(0.,0.,1.));
#545=DIRECTION('center_axis',(0.,0.,1.));
#546=DIRECTION('ref_axis',(1.,0.,0.));
#547=DIRECTION('',(0.,0.,1.));
#548=DIRECTION('center_axis',(0.,0.,1.));
#549=DIRECTION('ref_axis',(1.,0.,0.));
#550=DIRECTION('',(0.,0.,1.));
#551=DIRECTION('center_axis',(0.,0.,1.));
#552=DIRECTION('ref_axis',(1.,0.,0.));
#553=DIRECTION('',(0.,0.,1.));
#554=CARTESIAN_POINT('',(0.,0.,0.));
#555=CARTESIAN_POINT('Origin',(75.,75.,10.));
#556=CARTESIAN_POINT('',(75.,75.,0.));
#557=CARTESIAN_POINT('',(75.,-75.,0.));
#558=CARTESIAN_POINT('',(75.,75.,0.));
#559=CARTESIAN_POINT('',(75.,75.,10.));
#560=CARTESIAN_POINT('',(75.,75.,10.));
#561=CARTESIAN_POINT('',(75.,-75.,10.));
#562=CARTESIAN_POINT('',(75.,75.,10.));
#563=CARTESIAN_POINT('',(75.,-75.,10.));
#564=CARTESIAN_POINT('Origin',(75.,-75.,10.));
#565=CARTESIAN_POINT('',(-75.,-75.,0.));
#566=CARTESIAN_POINT('',(75.,-75.,0.));
#567=CARTESIAN_POINT('',(-75.,-75.,10.));
#568=CARTESIAN_POINT('',(75.,-75.,10.));
#569=CARTESIAN_POINT('',(-75.,-75.,10.));
#570=CARTESIAN_POINT('Origin',(-75.,-75.,10.));
#571=CARTESIAN_POINT('',(-75.,75.,0.));
#572=CARTESIAN_POINT('',(-75.,-75.,0.));
#573=CARTESIAN_POINT('',(-75.,75.,10.));
#574=CARTESIAN_POINT('',(-75.,-75.,10.));
#575=CARTESIAN_POINT('',(-75.,75.,10.));
#576=CARTESIAN_POINT('Origin',(-75.,75.,10.));
#577=CARTESIAN_POINT('',(-75.,75.,0.));
#578=CARTESIAN_POINT('',(-75.,75.,10.));
#579=CARTESIAN_POINT('Origin',(12.,11.,10.));
#580=CARTESIAN_POINT('',(47.5,50.,10.));
#581=CARTESIAN_POINT('Origin',(50.,50.,10.));
#582=CARTESIAN_POINT('',(47.5,-50.,10.));
#583=CARTESIAN_POINT('Origin',(50.,-50.,10.));
#584=CARTESIAN_POINT('',(-52.5,50.,10.));
#585=CARTESIAN_POINT('Origin',(-50.,50.,10.));
#586=CARTESIAN_POINT('',(-52.5,-50.,10.));
#587=CARTESIAN_POINT('Origin',(-50.,-50.,10.));
#588=CARTESIAN_POINT('',(47.,0.,10.));
#589=CARTESIAN_POINT('Origin',(50.,0.,10.));
#590=CARTESIAN_POINT('',(-1.91842049584891E-15,-47.,10.));
#591=CARTESIAN_POINT('Origin',(-1.73472347597681E-15,-50.,10.));
#592=CARTESIAN_POINT('',(-47.,5.20417042793042E-15,10.));
#593=CARTESIAN_POINT('Origin',(-50.,5.20417042793042E-15,10.));
#594=CARTESIAN_POINT('',(6.75519688403512E-15,47.,10.));
#595=CARTESIAN_POINT('Origin',(6.93889390390723E-15,50.,10.));
#596=CARTESIAN_POINT('',(27.5,0.,10.));
#597=CARTESIAN_POINT('Origin',(0.,0.,10.));
#598=CARTESIAN_POINT('Origin',(12.,11.,0.));
#599=CARTESIAN_POINT('',(47.5,50.,0.));
#600=CARTESIAN_POINT('Origin',(50.,50.,0.));
#601=CARTESIAN_POINT('',(47.5,-50.,0.));
#602=CARTESIAN_POINT('Origin',(50.,-50.,0.));
#603=CARTESIAN_POINT('',(-52.5,50.,0.));
#604=CARTESIAN_POINT('Origin',(-50.,50.,0.));
#605=CARTESIAN_POINT('',(-52.5,-50.,0.));
#606=CARTESIAN_POINT('Origin',(-50.,-50.,0.));
#607=CARTESIAN_POINT('',(53.3,0.,0.));
#608=CARTESIAN_POINT('Origin',(50.,0.,0.));
#609=CARTESIAN_POINT('',(-1.93679019783612E-15,-53.3,0.));
#610=CARTESIAN_POINT('Origin',(-1.73472347597681E-15,-50.,0.));
#611=CARTESIAN_POINT('',(-53.3,5.60830387164905E-15,0.));
#612=CARTESIAN_POINT('Origin',(-50.,5.20417042793042E-15,0.));
#613=CARTESIAN_POINT('',(7.54509406948517E-15,53.3,0.));
#614=CARTESIAN_POINT('Origin',(6.93889390390723E-15,50.,0.));
#615=CARTESIAN_POINT('',(27.5,0.,0.));
#616=CARTESIAN_POINT('Origin',(0.,0.,0.));
#617=CARTESIAN_POINT('Origin',(0.,0.,10.));
#618=CARTESIAN_POINT('',(27.5,-3.36777869765522E-15,10.));
#619=CARTESIAN_POINT('Origin',(6.93889390390723E-15,50.,0.3));
#620=CARTESIAN_POINT('',(6.38780284429092E-15,47.,0.3));
#621=CARTESIAN_POINT('',(7.85737900326774E-15,53.,0.300000000000001));
#622=CARTESIAN_POINT('Origin',(6.93889390390723E-15,50.,0.3));
#623=CARTESIAN_POINT('Origin',(6.93889390390723E-15,50.,0.3));
#624=CARTESIAN_POINT('',(6.75519688403512E-15,47.,0.3));
#625=CARTESIAN_POINT('Origin',(6.93889390390723E-15,50.,0.3));
#626=CARTESIAN_POINT('',(7.85737900326774E-15,53.,0.3));
#627=CARTESIAN_POINT('Origin',(-50.,5.20417042793042E-15,0.3));
#628=CARTESIAN_POINT('',(-47.,4.83677638818622E-15,0.3));
#629=CARTESIAN_POINT('',(-53.,5.93895850741883E-15,0.300000000000001));
#630=CARTESIAN_POINT('Origin',(-50.,5.20417042793042E-15,0.3));
#631=CARTESIAN_POINT('Origin',(-50.,5.20417042793042E-15,0.3));
#632=CARTESIAN_POINT('',(-47.,5.20417042793042E-15,0.3));
#633=CARTESIAN_POINT('Origin',(-50.,5.20417042793042E-15,0.3));
#634=CARTESIAN_POINT('',(-53.,5.93895850741883E-15,0.3));
#635=CARTESIAN_POINT('Origin',(-1.73472347597681E-15,-50.,0.3));
#636=CARTESIAN_POINT('',(-1.5510264561047E-15,-47.,0.3));
#637=CARTESIAN_POINT('',(-2.28581453559312E-15,-53.,0.300000000000001));
#638=CARTESIAN_POINT('Origin',(-1.73472347597681E-15,-50.,0.3));
#639=CARTESIAN_POINT('Origin',(-1.73472347597681E-15,-50.,0.3));
#640=CARTESIAN_POINT('',(-1.91842049584891E-15,-47.,0.3));
#641=CARTESIAN_POINT('Origin',(-1.73472347597681E-15,-50.,0.3));
#642=CARTESIAN_POINT('',(-2.28581453559312E-15,-53.,0.3));
#643=CARTESIAN_POINT('Origin',(50.,0.,0.3));
#644=CARTESIAN_POINT('',(47.,0.,0.3));
#645=CARTESIAN_POINT('',(53.,-3.67394039744206E-16,0.300000000000001));
#646=CARTESIAN_POINT('Origin',(50.,0.,0.3));
#647=CARTESIAN_POINT('Origin',(50.,0.,0.3));
#648=CARTESIAN_POINT('',(47.,-3.67394039744206E-16,0.3));
#649=CARTESIAN_POINT('Origin',(50.,0.,0.3));
#650=CARTESIAN_POINT('',(53.,-3.67394039744206E-16,0.3));
#651=CARTESIAN_POINT('Origin',(-50.,-50.,-3.));
#652=CARTESIAN_POINT('',(-52.5,-50.,-3.));
#653=CARTESIAN_POINT('Origin',(-50.,50.,-3.));
#654=CARTESIAN_POINT('',(-52.5,50.,-3.));
#655=CARTESIAN_POINT('Origin',(50.,-50.,-3.));
#656=CARTESIAN_POINT('',(47.5,-50.,-3.));
#657=CARTESIAN_POINT('Origin',(50.,50.,-3.));
#658=CARTESIAN_POINT('',(47.5,50.,-3.));
#659=UNCERTAINTY_MEASURE_WITH_UNIT(LENGTH_MEASURE(0.01),#663,
'DISTANCE_ACCURACY_VALUE',
'Maximum model space distance between geometric entities at asserted c
onnectivities');
#660=UNCERTAINTY_MEASURE_WITH_UNIT(LENGTH_MEASURE(0.01),#663,
'DISTANCE_ACCURACY_VALUE',
'Maximum model space distance between geometric entities at asserted c
onnectivities');
#661=(
GEOMETRIC_REPRESENTATION_CONTEXT(3)
GLOBAL_UNCERTAINTY_ASSIGNED_CONTEXT((#659))
GLOBAL_UNIT_ASSIGNED_CONTEXT((#663,#664,#665))
REPRESENTATION_CONTEXT('','3D')
);
#662=(
GEOMETRIC_REPRESENTATION_CONTEXT(3)
GLOBAL_UNCERTAINTY_ASSIGNED_CONTEXT((#660))
GLOBAL_UNIT_ASSIGNED_CONTEXT((#663,#664,#665))
REPRESENTATION_CONTEXT('','3D')
);
#663=(
LENGTH_UNIT()
NAMED_UNIT(*)
SI_UNIT(.MILLI.,.METRE.)
);
#664=(
NAMED_UNIT(*)
PLANE_ANGLE_UNIT()
SI_UNIT($,.RADIAN.)
);
#665=(
NAMED_UNIT(*)
SI_UNIT($,.STERADIAN.)
SOLID_ANGLE_UNIT()
);
#666=SHAPE_DEFINITION_REPRESENTATION(#667,#668);
#667=PRODUCT_DEFINITION_SHAPE('',$,#670);
#668=SHAPE_REPRESENTATION('',(#391),#661);
#669=PRODUCT_DEFINITION_CONTEXT('part definition',#674,'design');
#670=PRODUCT_DEFINITION('partANN::DOCUMENT','partANN::DOCUMENT',#671,#669);
#671=PRODUCT_DEFINITION_FORMATION('',$,#676);
#672=PRODUCT_RELATED_PRODUCT_CATEGORY('partANN::DOCUMENT',
'partANN::DOCUMENT',(#676));
#673=APPLICATION_PROTOCOL_DEFINITION('international standard',
'automotive_design',2009,#674);
#674=APPLICATION_CONTEXT(
'Core Data for Automotive Mechanical Design Process');
#675=PRODUCT_CONTEXT('part definition',#674,'mechanical');
#676=PRODUCT('partANN::DOCUMENT','partANN::DOCUMENT',$,(#675));
#677=PRESENTATION_STYLE_ASSIGNMENT((#679));
#678=PRESENTATION_STYLE_ASSIGNMENT((#680));
#679=SURFACE_STYLE_USAGE(.BOTH.,#681);
#680=SURFACE_STYLE_USAGE(.BOTH.,#682);
#681=SURFACE_SIDE_STYLE('',(#683));
#682=SURFACE_SIDE_STYLE('',(#684));
#683=SURFACE_STYLE_FILL_AREA(#685);
#684=SURFACE_STYLE_FILL_AREA(#686);
#685=FILL_AREA_STYLE('rgb_colour_1',(#687));
#686=FILL_AREA_STYLE('rgb_colour_2',(#688));
#687=FILL_AREA_STYLE_COLOUR('rgb_colour_1',#689);
#688=FILL_AREA_STYLE_COLOUR('rgb_colour_2',#690);
#689=COLOUR_RGB('rgb_colour_1',0.4,0.4,0.4);
#690=COLOUR_RGB('rgb_colour_2',0.4,0.4,0.4);
ENDSEC;
END-ISO-10303-21;
